All For Love v3
Difficulty: Intermediate / Version: 3
Tranpose
[Intro]

E|-------------------------------------------------------------------|
B|-------------------------------------------------------------------|
G|-------------------------------------------------------7-7-7-------| 
D|-----------------------6-6-6-2-2--0-0-0-7-7-7--7-------------------|   x2
A|------7-7-7-4-4 -0-0-0------------------------5--2-2-2-------------|
E|2-2-2--------------------------------------------------------------|


[Verse]

Lead Guitar
E|----------------------------------x---|
B|----------------------------------x---|
G|----------------------------------7~--|
D|-----------------------6-6-6-2-2- 7~--|   x2
A|------7-7-7-4-4 -0-0-0------------5~--|
E|2-2-2---------------------------------|

[Verse]
Rhythm Guitar

D                            F#m - A 
All for love our savior came
D        Bm                    F#m - A 
Gave His life and took my place


[Pre Chorus]

          E        F#m      D      A
And now I live for you, and all we do
               Bm                D
Will bring you praise, bring You praise 


[Chorus]
Rhythm Guitar

F#m       A               D
Whoa, I'm living for Your glory
F#m             A              D
Whoa, cause you died to set me free
        E                           F#m                       D        A
And the love that You gave when you took my place for all the world to see
         Bm                   D                                   
You gave everything, You gave everything, and it was all for love!


[Intro Riff Again]
E|-------------------------------------------------------------------|
B|-------------------------------------------------------------------|
G|-------------------------------------------------------7-7-7-------| 
D|-----------------------6-6-6-2-2--0-0-0-7-7-7--7-------------------|   x2
A|------7-7-7-4-4 -0-0-0------------------------5--2-2-2-------------|
E|2-2-2--------------------------------------------------------------|


[Verse]

Lead Guitar
E|----------------------------------x---|
B|----------------------------------x---|
G|----------------------------------7~--|
D|-----------------------6-6-6-2-2- 7~--|   x2
A|------7-7-7-4-4 -0-0-0------------5~--|
E|2-2-2---------------------------------|

Rhythm Guitar

D                            F#m - A 
All for love our savior came
D        Bm                    F#m - A 
Gave His life and took my place


[Pre Chorus}

          E        F#m      D      A
And now I live for you, and all we do
               Bm                D
Will bring you praise, bring You praise 


[Chorus]

Lead Guitar
e|-----------------------|
B|-----------------------|
G|14-14--14-14-14-14-14--|
D|14-14--14-14-14-14-14--| 
A|0--0---0--0 -0--0--0---|
E|-----------------------|

F#m       A               D
Whoa, I'm living for Your glory
F#m             A              D
Whoa, cause you died to set me free

       E                           F#m                       D        A
And the love that You gave when you took my place for all the world to see
         Bm                   D                                   
You gave everything, You gave everything, and it was all for love! and it was all for love!


[Bridge]
Rhythm Guitar

      D                  Bm        F#m                   A
I was lost and You saved me, I was blind and You made me see
      D              Bm                         F#m - A
I was broken and You healed me, and now I'm free


[Chorus]

Lead Guitar
e|-----------------------|
B|-----------------------|
G|14-14--14-14-14-14-14--|
D|14-14--14-14-14-14-14--| 
A|0--0---0--0 -0--0--0---|
E|-----------------------|

F#m       A               D
Whoa, I'm living for Your glory
F#m             A              D
Whoa, cause you died to set me free

       E                           F#m                       D        A
And the love that You gave when you took my place for all the world to see
         Bm                   D                                   
You gave everything, You gave everything, and it was all for love! and it was all for love!
Video Not Available