Thank You Lord v5
Difficulty: Intermediate / Version: 5
Tranpose
SONG: Thank You Lord
ARTIST: Don Moen
TABBED BY: Garmond Bacolod
TUNING: Standard
CAPO: 3rd Fret

   D5    D4    A4   Asus7
e|--5--|--4--|--5--|--3--|
B|--3--|--2--|--2--|--2--|
G|--2--|--2--|--2--|--2--|
D|--0--|--0--|--2--|--2--|
A|--x--|--x--|--0--|--0--|
E|--x--|--x--|--x--|--x--|

[INTRO]: 
D5(D4)-A4(Asus7)–G-A4 (2x) 

[VERSE 1]:
D                      A2
  I come before You today
Em
  And there's just one thing 
     Bm7
That I want to say
G          A2
Thank You Lord
G          A2 
Thank You Lord

[VERSE 2]:
D                         A2  
  For all You've given to me
Em
  For all the blessings 
     Bm7
That I cannot see
G          A2
Thank You Lord
G          A2
Thank You Lord

[PRE-CHORUS]:
D
  With a greatful heart
A2
  With a song of praise
Bm7
  With an outstreched arm
G
  I will bless Your name
[CHORUS]:
D           A2
Thank You Lord, I just wanna 
G           A2 
Thank You Lord
D           A2
Thank You Lord, I just wanna 
G           A2 
Thank You Lord, Thank You Lord

[FILL]: D5 – A4 – G – A4
e|--------------|-------------|-------|
B|--------------|-5^-3-5p3----|-------|
G|-9^-7-9/11-9~-|----------2~-|-5^-2~-|
D|--------------|-------------|-------|
A|--------------|-------------|-------|
E|--------------|-------------|-------|

[VERSE 3]:
D                            A2
  For all You've done in my life
Em
  You took my darkness 
    Bm7
And gave me Your light
G           A2 
Thank You Lord
G           A2
Thank You Lord

[VERSE 4]:
D                          A2
  You took my sin and my shame
Em
  You took my sickness 
    Bm7
And healed all my pain
G           A2
Thank You Lord
G           A2  
Thank You Lord

[PRE-CHORUS]
[CHORUS] 2x
Video Not Available